  0
SECTION
  2
HEADER
  9
$ACADVER
  1
AC1015
  9
$ACADMAINTVER
 70
     6
  9
$DWGCODEPAGE
  3
ANSI_1254
  9
$INSBASE
 10
0.0
 20
0.0
 30
0.0
  9
$EXTMIN
 10
0.0
 20
0.0
 30
0.0
  9
$EXTMAX
 10
279.4
 20
215.9
 30
0.0
  9
$LIMMIN
 10
0.0
 20
0.0
  9
$LIMMAX
 10
279.4
 20
215.9
  9
$ORTHOMODE
 70
     0
  9
$REGENMODE
 70
     1
  9
$FILLMODE
 70
     1
  9
$QTEXTMODE
 70
     0
  9
$MIRRTEXT
 70
     1
  9
$LTSCALE
 40
1.0
  9
$ATTMODE
 70
     1
  9
$TEXTSIZE
 40
3.5
  9
$TRACEWID
 40
1.0
  9
$TEXTSTYLE
  7
Standard
  9
$CLAYER
  8
0
  9
$CELTYPE
  6
ByLayer
  9
$CECOLOR
 62
   256
  9
$CELTSCALE
 40
1.0
  9
$DISPSILH
 70
     0
  9
$DIMSCALE
 40
1.0
  9
$DIMASZ
 40
3.5
  9
$DIMEXO
 40
1.0
  9
$DIMDLI
 40
3.75
  9
$DIMRND
 40
0.0
  9
$DIMDLE
 40
0.0
  9
$DIMEXE
 40
1.0
  9
$DIMTP
 40
0.0
  9
$DIMTM
 40
0.0
  9
$DIMTXT
 40
3.5
  9
$DIMCEN
 40
2.5
  9
$DIMTSZ
 40
0.0
  9
$DIMTOL
 70
     0
  9
$DIMLIM
 70
     0
  9
$DIMTIH
 70
     1
  9
$DIMTOH
 70
     1
  9
$DIMSE1
 70
     0
  9
$DIMSE2
 70
     0
  9
$DIMTAD
 70
     1
  9
$DIMZIN
 70
     0
  9
$DIMBLK
  1

  9
$DIMASO
 70
     1
  9
$DIMSHO
 70
     1
  9
$DIMPOST
  1

  9
$DIMAPOST
  1

  9
$DIMALT
 70
     0
  9
$DIMALTD
 70
     3
  9
$DIMALTF
 40
0.0393700787
  9
$DIMLFAC
 40
1.0
  9
$DIMTOFL
 70
     1
  9
$DIMTVP
 40
0.0
  9
$DIMTIX
 70
     0
  9
$DIMSOXD
 70
     0
  9
$DIMSAH
 70
     0
  9
$DIMBLK1
  1

  9
$DIMBLK2
  1

  9
$DIMSTYLE
  2
ISO-25
  9
$DIMCLRD
 70
     0
  9
$DIMCLRE
 70
     0
  9
$DIMCLRT
 70
     0
  9
$DIMTFAC
 40
1.0
  9
$DIMGAP
 40
1.524
  9
$DIMJUST
 70
     0
  9
$DIMSD1
 70
     0
  9
$DIMSD2
 70
     0
  9
$DIMTOLJ
 70
     0
  9
$DIMTZIN
 70
     0
  9
$DIMALTZ
 70
     0
  9
$DIMALTTZ
 70
     0
  9
$DIMUPT
 70
     0
  9
$DIMDEC
 70
     2
  9
$DIMTDEC
 70
     2
  9
$DIMALTU
 70
     2
  9
$DIMALTTD
 70
     3
  9
$DIMTXSTY
  7
Standard
  9
$DIMAUNIT
 70
     0
  9
$DIMADEC
 70
     2
  9
$DIMALTRND
 40
0.0
  9
$DIMAZIN
 70
     0
  9
$DIMDSEP
 70
    44
  9
$DIMATFIT
 70
     3
  9
$DIMFRAC
 70
     0
  9
$DIMLDRBLK
  1

  9
$DIMLUNIT
 70
     2
  9
$DIMLWD
 70
    -2
  9
$DIMLWE
 70
    -2
  9
$DIMTMOVE
 70
     0
  9
$LUNITS
 70
     2
  9
$LUPREC
 70
     2
  9
$SKETCHINC
 40
1.0
  9
$FILLETRAD
 40
10.0
  9
$AUNITS
 70
     0
  9
$AUPREC
 70
     2
  9
$MENU
  1
.
  9
$ELEVATION
 40
0.0
  9
$PELEVATION
 40
0.0
  9
$THICKNESS
 40
0.0
  9
$LIMCHECK
 70
     0
  9
$CHAMFERA
 40
0.0
  9
$CHAMFERB
 40
0.0
  9
$CHAMFERC
 40
0.0
  9
$CHAMFERD
 40
0.0
  9
$SKPOLY
 70
     0
  9
$TDCREATE
 40
2458985.65109816
  9
$TDUCREATE
 40
2458985.52609816
  9
$TDUPDATE
 40
2458985.651098472
  9
$TDUUPDATE
 40
2458985.526098472
  9
$TDINDWG
 40
0.0000000116
  9
$TDUSRTIMER
 40
0.0000000116
  9
$USRTIMER
 70
     1
  9
$ANGBASE
 50
0.0
  9
$ANGDIR
 70
     0
  9
$PDMODE
 70
     0
  9
$PDSIZE
 40
-1.0
  9
$PLINEWID
 40
0.0
  9
$SPLFRAME
 70
     0
  9
$SPLINETYPE
 70
     6
  9
$SPLINESEGS
 70
     8
  9
$HANDSEED
  5
BF
  9
$SURFTAB1
 70
     6
  9
$SURFTAB2
 70
     6
  9
$SURFTYPE
 70
     6
  9
$SURFU
 70
     6
  9
$SURFV
 70
     6
  9
$UCSBASE
  2

  9
$UCSNAME
  2

  9
$UCSORG
 10
0.0
 20
0.0
 30
0.0
  9
$UCSXDIR
 10
1.0
 20
0.0
 30
0.0
  9
$UCSYDIR
 10
0.0
 20
1.0
 30
0.0
  9
$UCSORTHOREF
  2

  9
$UCSORTHOVIEW
 70
     0
  9
$UCSORGTOP
 10
0.0
 20
0.0
 30
0.0
  9
$UCSORGBOTTOM
 10
0.0
 20
0.0
 30
0.0
  9
$UCSORGLEFT
 10
0.0
 20
0.0
 30
0.0
  9
$UCSORGRIGHT
 10
0.0
 20
0.0
 30
0.0
  9
$UCSORGFRONT
 10
0.0
 20
0.0
 30
0.0
  9
$UCSORGBACK
 10
0.0
 20
0.0
 30
0.0
  9
$PUCSBASE
  2

  9
$PUCSNAME
  2

  9
$PUCSORG
 10
0.0
 20
0.0
 30
0.0
  9
$PUCSXDIR
 10
1.0
 20
0.0
 30
0.0
  9
$PUCSYDIR
 10
0.0
 20
1.0
 30
0.0
  9
$PUCSORTHOREF
  2

  9
$PUCSORTHOVIEW
 70
     0
  9
$PUCSORGTOP
 10
0.0
 20
0.0
 30
0.0
  9
$PUCSORGBOTTOM
 10
0.0
 20
0.0
 30
0.0
  9
$PUCSORGLEFT
 10
0.0
 20
0.0
 30
0.0
  9
$PUCSORGRIGHT
 10
0.0
 20
0.0
 30
0.0
  9
$PUCSORGFRONT
 10
0.0
 20
0.0
 30
0.0
  9
$PUCSORGBACK
 10
0.0
 20
0.0
 30
0.0
  9
$USERI1
 70
     0
  9
$USERI2
 70
     0
  9
$USERI3
 70
     0
  9
$USERI4
 70
     0
  9
$USERI5
 70
     0
  9
$USERR1
 40
0.0
  9
$USERR2
 40
0.0
  9
$USERR3
 40
0.0
  9
$USERR4
 40
0.0
  9
$USERR5
 40
0.0
  9
$WORLDVIEW
 70
     1
  9
$SHADEDGE
 70
     3
  9
$SHADEDIF
 70
    70
  9
$TILEMODE
 70
     1
  9
$MAXACTVP
 70
    64
  9
$PINSBASE
 10
0.0
 20
0.0
 30
0.0
  9
$PLIMCHECK
 70
     0
  9
$PEXTMIN
 10
1.0000000000E+20
 20
1.0000000000E+20
 30
1.0000000000E+20
  9
$PEXTMAX
 10
-1.0000000000E+20
 20
-1.0000000000E+20
 30
-1.0000000000E+20
  9
$PLIMMIN
 10
0.0
 20
0.0
  9
$PLIMMAX
 10
420.0
 20
297.0
  9
$UNITMODE
 70
     0
  9
$VISRETAIN
 70
     1
  9
$PLINEGEN
 70
     0
  9
$PSLTSCALE
 70
     1
  9
$TREEDEPTH
 70
  3020
  9
$CMLSTYLE
  2
Standard
  9
$CMLJUST
 70
     0
  9
$CMLSCALE
 40
20.0
  9
$PROXYGRAPHICS
 70
     1
  9
$MEASUREMENT
 70
     1
  9
$CELWEIGHT
370
    -1
  9
$ENDCAPS
280
     0
  9
$JOINSTYLE
280
     0
  9
$LWDISPLAY
290
     1
  9
$INSUNITS
 70
     4
  9
$HYPERLINKBASE
  1

  9
$STYLESHEET
  1

  9
$XEDIT
290
     1
  9
$CEPSNTYPE
380
     0
  9
$PSTYLEMODE
290
     1
  9
$FINGERPRINTGUID
  2
{a28c28a5-85f1-469a-aaa4-5a039c2fe305}
  9
$VERSIONGUID
  2
{FAEB1C32-E019-11D5-929B-00C0DF256EC4}
  9
$EXTNAMES
290
     1
  9
$PSVPSCALE
 40
0.0
  9
$OLESTARTUP
290
     0
  0
ENDSEC
  0
SECTION
  2
CLASSES
  0
CLASS
  1
ACDBDICTIONARYWDFLT
  2
AcDbDictionaryWithDefault
  3
ObjectDBX Classes
 90
        0
280
     0
281
     0
  0
CLASS
  1
VISUALSTYLE
  2
AcDbVisualStyle
  3
ObjectDBX Classes
 90
     4095
280
     0
281
     0
  0
CLASS
  1
MATERIAL
  2
AcDbMaterial
  3
ObjectDBX Classes
 90
     1153
280
     0
281
     0
  0
CLASS
  1
SCALE
  2
AcDbScale
  3
ObjectDBX Classes
 90
     1153
280
     0
281
     0
  0
CLASS
  1
TABLESTYLE
  2
AcDbTableStyle
  3
ObjectDBX Classes
 90
     4095
280
     0
281
     0
  0
CLASS
  1
MLEADERSTYLE
  2
AcDbMLeaderStyle
  3
ACDB_MLEADERSTYLE_CLASS
 90
     4095
280
     0
281
     0
  0
CLASS
  1
SUN
  2
AcDbSun
  3
SCENEOE
 90
     1153
280
     0
281
     0
  0
CLASS
  1
ACDBPLACEHOLDER
  2
AcDbPlaceHolder
  3
ObjectDBX Classes
 90
        0
280
     0
281
     0
  0
CLASS
  1
LAYOUT
  2
AcDbLayout
  3
ObjectDBX Classes
 90
        0
280
     0
281
     0
  0
ENDSEC
  0
SECTION
  2
TABLES
  0
TABLE
  2
VPORT
  5
8
330
0
100
AcDbSymbolTable
 70
     1
  0
VPORT
  5
29
330
8
100
AcDbSymbolTableRecord
100
AcDbViewportTableRecord
  2
*Active
 70
     0
 10
0.0
 20
0.0
 11
1.0
 21
1.0
 12
139.7
 22
107.95
 13
0.0
 23
0.0
 14
10.0
 24
10.0
 15
10.0
 25
10.0
 16
0.0
 26
0.0
 36
1.0
 17
0.0
 27
0.0
 37
0.0
 40
215.9
 41
1.2941176471
 42
50.0
 43
0.0
 44
0.0
 50
0.0
 51
0.0
 71
     0
 72
  2000
 73
     1
 74
     3
 75
     0
 76
     0
 77
     0
 78
     0
281
     0
 65
     1
110
0.0
120
0.0
130
0.0
111
1.0
121
0.0
131
0.0
112
0.0
122
1.0
132
0.0
 79
     0
146
0.0
  0
ENDTAB
  0
TABLE
  2
LTYPE
  5
5
330
0
100
AcDbSymbolTable
 70
     6
  0
LTYPE
  5
14
330
5
100
AcDbSymbolTableRecord
100
AcDbLinetypeTableRecord
  2
ByBlock
 70
     0
  3

 72
    65
 73
     0
 40
0.0
  0
LTYPE
  5
15
330
5
100
AcDbSymbolTableRecord
100
AcDbLinetypeTableRecord
  2
ByLayer
 70
     0
  3

 72
    65
 73
     0
 40
0.0
  0
LTYPE
  5
16
330
5
100
AcDbSymbolTableRecord
100
AcDbLinetypeTableRecord
  2
Continuous
 70
     0
  3
Solid line
 72
    65
 73
     0
 40
0.0
  0
LTYPE
  5
6E
330
5
100
AcDbSymbolTableRecord
100
AcDbLinetypeTableRecord
  2
HIDDEN
 70
     0
  3
Hidden __ __ __ __ __ __ __ __ __ __ __ __ __ __
 72
    65
 73
     2
 40
1.905
 49
1.27
 74
     0
 49
-0.635
 74
     0
  0
LTYPE
  5
6F
330
5
100
AcDbSymbolTableRecord
100
AcDbLinetypeTableRecord
  2
PHANTOM
 70
     0
  3
Phantom ______  __  __  ______  __  __  ______
 72
    65
 73
     6
 40
12.7
 49
6.35
 74
     0
 49
-1.27
 74
     0
 49
1.27
 74
     0
 49
-1.27
 74
     0
 49
1.27
 74
     0
 49
-1.27
 74
     0
  0
LTYPE
  5
70
330
5
100
AcDbSymbolTableRecord
100
AcDbLinetypeTableRecord
  2
CENTER
 70
     0
  3
Center ____ _ ____ _ ____ _ ____ _ ____ _ ____
 72
    65
 73
     4
 40
10.16
 49
6.35
 74
     0
 49
-1.27
 74
     0
 49
1.27
 74
     0
 49
-1.27
 74
     0
  0
LTYPE
  5
71
330
5
100
AcDbSymbolTableRecord
100
AcDbLinetypeTableRecord
  2
CENTERX2
 70
     0
  3
Center (2x) ________  __  ________  __  _____
 72
    65
 73
     4
 40
20.32
 49
12.7
 74
     0
 49
-2.54
 74
     0
 49
2.54
 74
     0
 49
-2.54
 74
     0
  0
LTYPE
  5
72
330
5
100
AcDbSymbolTableRecord
100
AcDbLinetypeTableRecord
  2
DOT2
 70
     0
  3
Dot (.5x) ........................................
 72
    65
 73
     2
 40
0.635
 49
0.0
 74
     0
 49
-0.635
 74
     0
  0
ENDTAB
  0
TABLE
  2
LAYER
  5
2
330
0
100
AcDbSymbolTable
 70
    17
  0
LAYER
  5
10
330
2
100
AcDbSymbolTableRecord
100
AcDbLayerTableRecord
  2
0
 70
     0
 62
     7
  6
Continuous
370
    -3
390
F
  0
LAYER
  5
73
330
2
100
AcDbSymbolTableRecord
100
AcDbLayerTableRecord
  2
FORMAT
 70
     0
 62
     7
  6
Continuous
370
    -3
390
F
  0
LAYER
  5
74
330
2
100
AcDbSymbolTableRecord
100
AcDbLayerTableRecord
  2
YARDIMCI_GEOMETRI
 70
     0
 62
    -6
  6
Continuous
290
     0
370
    -3
390
F
  0
LAYER
  5
75
330
2
100
AcDbSymbolTableRecord
100
AcDbLayerTableRecord
  2
SAYFA_CERCEVESI
 70
     0
 62
     7
  6
Continuous
370
    25
390
F
  0
LAYER
  5
76
330
2
100
AcDbSymbolTableRecord
100
AcDbLayerTableRecord
  2
ANTET
 70
     0
 62
     7
  6
Continuous
370
    -3
390
F
  0
LAYER
  5
77
330
2
100
AcDbSymbolTableRecord
100
AcDbLayerTableRecord
  2
OLCU
 70
     0
 62
   150
  6
Continuous
370
    -3
390
F
  0
LAYER
  5
78
330
2
100
AcDbSymbolTableRecord
100
AcDbLayerTableRecord
  2
METIN
 70
     0
 62
    96
  6
Continuous
370
    -3
390
F
  0
LAYER
  5
79
330
2
100
AcDbSymbolTableRecord
100
AcDbLayerTableRecord
  2
BALON
 70
     0
 62
     5
  6
Continuous
370
    -3
390
F
  0
LAYER
  5
7A
330
2
100
AcDbSymbolTableRecord
100
AcDbLayerTableRecord
  2
VURGU
 70
     0
 62
     7
  6
Continuous
370
    -3
390
F
  0
LAYER
  5
7B
330
2
100
AcDbSymbolTableRecord
100
AcDbLayerTableRecord
  2
SILIK
 70
     0
 62
     7
  6
Continuous
370
    -3
390
F
  0
LAYER
  5
7C
330
2
100
AcDbSymbolTableRecord
100
AcDbLayerTableRecord
  2
MODEL
 70
     0
 62
     7
  6
Continuous
370
    -3
390
F
  0
LAYER
  5
7D
330
2
100
AcDbSymbolTableRecord
100
AcDbLayerTableRecord
  2
DETAYLANDıRMA
 70
     0
 62
   190
  6
Continuous
370
    -3
390
F
  0
LAYER
  5
7E
330
2
100
AcDbSymbolTableRecord
100
AcDbLayerTableRecord
  2
TOLERANS
 70
     0
 62
   230
  6
Continuous
370
    -3
390
F
  0
LAYER
  5
7F
330
2
100
AcDbSymbolTableRecord
100
AcDbLayerTableRecord
  2
MERKEZ_CIZGILERI
 70
     0
 62
    30
  6
Continuous
370
    -3
390
F
  0
LAYER
  5
80
330
2
100
AcDbSymbolTableRecord
100
AcDbLayerTableRecord
  2
KESIT-DETAY_CIZGILERI
 70
     0
 62
     7
  6
Continuous
370
    -3
390
F
  0
LAYER
  5
81
330
2
100
AcDbSymbolTableRecord
100
AcDbLayerTableRecord
  2
\U+041E\U+0421\U+0415\U+0412\U+042B\U+0415
 70
     0
 62
     7
  6
Continuous
370
    -3
390
F
  0
LAYER
  5
82
330
2
100
AcDbSymbolTableRecord
100
AcDbLayerTableRecord
  2
\U+0412\U+041E\U+0414\U+042F\U+041D\U+042B\U+0415_\U+0417\U+041D\U+0410\U+041A\U+0418
 70
     0
 62
    11
  6
Continuous
370
    -3
390
F
  0
ENDTAB
  0
TABLE
  2
STYLE
  5
3
330
0
100
AcDbSymbolTable
 70
     1
  0
STYLE
  5
11
330
3
100
AcDbSymbolTableRecord
100
AcDbTextStyleTableRecord
  2
Standard
 70
     0
 40
0.0
 41
1.0
 50
0.0
 71
     0
 42
3.5
  3
txt
  4

  0
ENDTAB
  0
TABLE
  2
VIEW
  5
6
330
0
100
AcDbSymbolTable
 70
     0
  0
ENDTAB
  0
TABLE
  2
UCS
  5
7
330
0
100
AcDbSymbolTable
 70
     0
  0
ENDTAB
  0
TABLE
  2
APPID
  5
9
330
0
100
AcDbSymbolTable
 70
     1
  0
APPID
  5
12
330
9
100
AcDbSymbolTableRecord
100
AcDbRegAppTableRecord
  2
ACAD
 70
     0
  0
ENDTAB
  0
TABLE
  2
DIMSTYLE
  5
A
330
0
100
AcDbSymbolTable
 70
     1
100
AcDbDimStyleTable
  0
DIMSTYLE
105
27
330
A
100
AcDbSymbolTableRecord
100
AcDbDimStyleTableRecord
  2
ISO-25
 70
     0
 41
2.5
 42
0.625
 43
3.75
 44
1.25
 73
     0
 74
     0
 77
     1
 78
     8
140
2.5
141
2.5
143
0.0393700787
147
0.625
171
     3
172
     1
178
     0
271
     2
272
     2
274
     3
278
    44
283
     0
284
     8
340
11
  0
ENDTAB
  0
TABLE
  2
BLOCK_RECORD
  5
1
330
0
100
AcDbSymbolTable
 70
     1
  0
BLOCK_RECORD
  5
1F
330
1
100
AcDbSymbolTableRecord
100
AcDbBlockTableRecord
  2
*Model_Space
340
22
  0
BLOCK_RECORD
  5
1B
330
1
100
AcDbSymbolTableRecord
100
AcDbBlockTableRecord
  2
*Paper_Space
340
1E
  0
BLOCK_RECORD
  5
23
330
1
100
AcDbSymbolTableRecord
100
AcDbBlockTableRecord
  2
*Paper_Space0
340
26
  0
ENDTAB
  0
ENDSEC
  0
SECTION
  2
BLOCKS
  0
BLOCK
  5
20
330
1F
100
AcDbEntity
  8
0
100
AcDbBlockBegin
  2
*Model_Space
 70
     0
 10
0.0
 20
0.0
 30
0.0
  3
*Model_Space
  1

  0
ENDBLK
  5
21
330
1F
100
AcDbEntity
  8
0
100
AcDbBlockEnd
  0
BLOCK
  5
1C
330
1B
100
AcDbEntity
 67
     1
  8
0
100
AcDbBlockBegin
  2
*Paper_Space
 70
     0
 10
0.0
 20
0.0
 30
0.0
  3
*Paper_Space
  1

  0
ENDBLK
  5
1D
330
1B
100
AcDbEntity
 67
     1
  8
0
100
AcDbBlockEnd
  0
BLOCK
  5
24
330
23
100
AcDbEntity
  8
0
100
AcDbBlockBegin
  2
*Paper_Space0
 70
     0
 10
0.0
 20
0.0
 30
0.0
  3
*Paper_Space0
  1

  0
ENDBLK
  5
25
330
23
100
AcDbEntity
  8
0
100
AcDbBlockEnd
  0
ENDSEC
  0
SECTION
  2
ENTITIES
  0
CIRCLE
  5
83
330
1F
100
AcDbEntity
  8
0
  6
Continuous
 62
     7
370
    25
100
AcDbCircle
 10
135.9944086538
 20
118.27271875
 30
0.0
 40
62.5
  0
CIRCLE
  5
84
330
1F
100
AcDbEntity
  8
0
  6
Continuous
 62
     7
370
    25
100
AcDbCircle
 10
135.9944086538
 20
118.27271875
 30
0.0
 40
55.09999999999999
  0
CIRCLE
  5
85
330
1F
100
AcDbEntity
  8
0
  6
Continuous
 62
     7
370
    25
100
AcDbCircle
 10
135.9944086538
 20
118.27271875
 30
0.0
 40
67.50000000000001
  0
CIRCLE
  5
86
330
1F
100
AcDbEntity
  8
0
  6
Continuous
 62
     7
370
    25
100
AcDbCircle
 10
135.9944086538
 20
118.27271875
 30
0.0
 40
79.0
  0
LINE
  5
87
330
1F
100
AcDbEntity
  8
0
  6
Continuous
 62
     7
370
    25
100
AcDbLine
 10
214.9944086538
 20
232.8457040549
 30
0.0
 11
214.9944086538
 21
252.8457040549
 31
0.0
  0
LINE
  5
88
330
1F
100
AcDbEntity
  8
0
  6
Continuous
 62
     7
370
    25
100
AcDbLine
 10
56.9944086538
 20
252.8457040549
 30
0.0
 11
56.9944086538
 21
232.8457040549
 31
0.0
  0
LINE
  5
89
330
1F
100
AcDbEntity
  8
0
  6
Continuous
 62
     7
370
    25
100
AcDbLine
 10
203.4944086538
 20
252.8457040549
 30
0.0
 11
198.4944086538
 21
272.8457040549
 31
0.0
  0
LINE
  5
8A
330
1F
100
AcDbEntity
  8
0
  6
Continuous
 62
     7
370
    25
100
AcDbLine
 10
73.4944086538
 20
272.8457040549
 30
0.0
 11
68.4944086538
 21
252.8457040549
 31
0.0
  0
LINE
  5
8B
330
1F
100
AcDbEntity
  8
0
  6
Continuous
 62
     7
370
    25
100
AcDbLine
 10
198.4944086538
 20
272.8457040549
 30
0.0
 11
198.4944086538
 21
392.8457040549
 31
0.0
  0
LINE
  5
8C
330
1F
100
AcDbEntity
  8
0
  6
Continuous
 62
     7
370
    25
100
AcDbLine
 10
73.4944086538
 20
392.8457040549
 30
0.0
 11
73.4944086538
 21
272.8457040549
 31
0.0
  0
LINE
  5
8D
330
1F
100
AcDbEntity
  8
0
  6
Continuous
 62
     7
370
    25
100
AcDbLine
 10
214.9944086538
 20
232.8457040549
 30
0.0
 11
56.9944086538
 21
232.8457040549
 31
0.0
  0
LINE
  5
8E
330
1F
100
AcDbEntity
  8
0
  6
Continuous
 62
     7
370
    25
100
AcDbLine
 10
214.9944086538
 20
252.8457040549
 30
0.0
 11
56.9944086538
 21
252.8457040549
 31
0.0
  0
LINE
  5
8F
330
1F
100
AcDbEntity
  8
0
  6
Continuous
 62
     7
370
    25
100
AcDbLine
 10
198.4944086538
 20
272.8457040549
 30
0.0
 11
73.4944086538
 21
272.8457040549
 31
0.0
  0
LINE
  5
90
330
1F
100
AcDbEntity
  8
0
  6
Continuous
 62
     7
370
    25
100
AcDbLine
 10
198.4944086538
 20
392.8457040549
 30
0.0
 11
73.4944086538
 21
392.8457040549
 31
0.0
  0
LINE
  5
91
330
1F
100
AcDbEntity
  8
0
  6
Continuous
 62
     7
370
    25
100
AcDbLine
 10
-38.3422174029
 20
197.27271875
 30
0.0
 11
-58.3422174029
 21
197.27271875
 31
0.0
  0
LINE
  5
92
330
1F
100
AcDbEntity
  8
0
  6
Continuous
 62
     7
370
    25
100
AcDbLine
 10
-58.3422174029
 20
39.27271875
 30
0.0
 11
-38.3422174029
 21
39.27271875
 31
0.0
  0
LINE
  5
93
330
1F
100
AcDbEntity
  8
0
  6
Continuous
 62
     7
370
    25
100
AcDbLine
 10
-58.3422174029
 20
185.77271875
 30
0.0
 11
-78.3422174029
 21
180.77271875
 31
0.0
  0
LINE
  5
94
330
1F
100
AcDbEntity
  8
0
  6
Continuous
 62
     7
370
    25
100
AcDbLine
 10
-78.3422174029
 20
55.77271875
 30
0.0
 11
-58.3422174029
 21
50.77271875
 31
0.0
  0
LINE
  5
95
330
1F
100
AcDbEntity
  8
0
  6
Continuous
 62
     7
370
    25
100
AcDbLine
 10
-78.3422174029
 20
180.77271875
 30
0.0
 11
-198.3422174029
 21
180.77271875
 31
0.0
  0
LINE
  5
96
330
1F
100
AcDbEntity
  8
0
  6
Continuous
 62
     7
370
    25
100
AcDbLine
 10
-198.3422174029
 20
55.77271875
 30
0.0
 11
-78.3422174029
 21
55.77271875
 31
0.0
  0
LINE
  5
97
330
1F
100
AcDbEntity
  8
0
  6
Continuous
 62
     7
370
    25
100
AcDbLine
 10
-38.3422174029
 20
197.27271875
 30
0.0
 11
-38.3422174029
 21
39.27271875
 31
0.0
  0
LINE
  5
98
330
1F
100
AcDbEntity
  8
0
  6
Continuous
 62
     7
370
    25
100
AcDbLine
 10
-58.3422174029
 20
197.27271875
 30
0.0
 11
-58.3422174029
 21
39.27271875
 31
0.0
  0
LINE
  5
99
330
1F
100
AcDbEntity
  8
0
  6
Continuous
 62
     7
370
    25
100
AcDbLine
 10
-78.3422174029
 20
180.77271875
 30
0.0
 11
-78.3422174029
 21
55.77271875
 31
0.0
  0
LINE
  5
9A
330
1F
100
AcDbEntity
  8
0
  6
Continuous
 62
     7
370
    25
100
AcDbLine
 10
-198.3422174029
 20
180.77271875
 30
0.0
 11
-198.3422174029
 21
55.77271875
 31
0.0
  0
LINE
  5
9B
330
1F
100
AcDbEntity
  8
0
  6
Continuous
 62
     7
370
    25
100
AcDbLine
 10
56.9944086538
 20
-15.0140994415
 30
0.0
 11
56.9944086538
 21
-35.0140994415
 31
0.0
  0
LINE
  5
9C
330
1F
100
AcDbEntity
  8
0
  6
Continuous
 62
     7
370
    25
100
AcDbLine
 10
214.9944086538
 20
-35.0140994415
 30
0.0
 11
214.9944086538
 21
-15.0140994415
 31
0.0
  0
LINE
  5
9D
330
1F
100
AcDbEntity
  8
0
  6
Continuous
 62
     7
370
    25
100
AcDbLine
 10
68.4944086538
 20
-35.0140994415
 30
0.0
 11
73.4944086538
 21
-55.0140994415
 31
0.0
  0
LINE
  5
9E
330
1F
100
AcDbEntity
  8
0
  6
Continuous
 62
     7
370
    25
100
AcDbLine
 10
198.4944086538
 20
-55.0140994415
 30
0.0
 11
203.4944086538
 21
-35.0140994415
 31
0.0
  0
LINE
  5
9F
330
1F
100
AcDbEntity
  8
0
  6
Continuous
 62
     7
370
    25
100
AcDbLine
 10
73.4944086538
 20
-55.0140994415
 30
0.0
 11
73.4944086538
 21
-175.0140994415
 31
0.0
  0
LINE
  5
A0
330
1F
100
AcDbEntity
  8
0
  6
Continuous
 62
     7
370
    25
100
AcDbLine
 10
198.4944086538
 20
-175.0140994415
 30
0.0
 11
198.4944086538
 21
-55.0140994415
 31
0.0
  0
LINE
  5
A1
330
1F
100
AcDbEntity
  8
0
  6
Continuous
 62
     7
370
    25
100
AcDbLine
 10
56.9944086538
 20
-15.0140994415
 30
0.0
 11
214.9944086538
 21
-15.0140994415
 31
0.0
  0
LINE
  5
A2
330
1F
100
AcDbEntity
  8
0
  6
Continuous
 62
     7
370
    25
100
AcDbLine
 10
56.9944086538
 20
-35.0140994415
 30
0.0
 11
214.9944086538
 21
-35.0140994415
 31
0.0
  0
LINE
  5
A3
330
1F
100
AcDbEntity
  8
0
  6
Continuous
 62
     7
370
    25
100
AcDbLine
 10
73.4944086538
 20
-55.0140994415
 30
0.0
 11
198.4944086538
 21
-55.0140994415
 31
0.0
  0
LINE
  5
A4
330
1F
100
AcDbEntity
  8
0
  6
Continuous
 62
     7
370
    25
100
AcDbLine
 10
73.4944086538
 20
-175.0140994415
 30
0.0
 11
198.4944086538
 21
-175.0140994415
 31
0.0
  0
LINE
  5
A5
330
1F
100
AcDbEntity
  8
0
  6
Continuous
 62
     7
370
    25
100
AcDbLine
 10
298.2654811621
 20
39.27271875
 30
0.0
 11
318.2654811621
 21
39.27271875
 31
0.0
  0
LINE
  5
A6
330
1F
100
AcDbEntity
  8
0
  6
Continuous
 62
     7
370
    25
100
AcDbLine
 10
318.2654811621
 20
197.27271875
 30
0.0
 11
298.2654811621
 21
197.27271875
 31
0.0
  0
LINE
  5
A7
330
1F
100
AcDbEntity
  8
0
  6
Continuous
 62
     7
370
    25
100
AcDbLine
 10
318.2654811621
 20
50.77271875
 30
0.0
 11
338.2654811621
 21
55.77271875
 31
0.0
  0
LINE
  5
A8
330
1F
100
AcDbEntity
  8
0
  6
Continuous
 62
     7
370
    25
100
AcDbLine
 10
338.2654811621
 20
180.77271875
 30
0.0
 11
318.2654811621
 21
185.77271875
 31
0.0
  0
LINE
  5
A9
330
1F
100
AcDbEntity
  8
0
  6
Continuous
 62
     7
370
    25
100
AcDbLine
 10
338.2654811621
 20
55.77271875
 30
0.0
 11
458.2654811621
 21
55.77271875
 31
0.0
  0
LINE
  5
AA
330
1F
100
AcDbEntity
  8
0
  6
Continuous
 62
     7
370
    25
100
AcDbLine
 10
458.2654811621
 20
180.77271875
 30
0.0
 11
338.2654811621
 21
180.77271875
 31
0.0
  0
LINE
  5
AB
330
1F
100
AcDbEntity
  8
0
  6
Continuous
 62
     7
370
    25
100
AcDbLine
 10
298.2654811621
 20
118.27271875
 30
0.0
 11
298.2654811621
 21
197.27271875
 31
0.0
  0
LINE
  5
AC
330
1F
100
AcDbEntity
  8
0
  6
Continuous
 62
     7
370
    25
100
AcDbLine
 10
298.2654811621
 20
39.27271875
 30
0.0
 11
298.2654811621
 21
118.27271875
 31
0.0
  0
LINE
  5
AD
330
1F
100
AcDbEntity
  8
0
  6
Continuous
 62
     7
370
    25
100
AcDbLine
 10
318.2654811621
 20
118.27271875
 30
0.0
 11
318.2654811621
 21
197.27271875
 31
0.0
  0
LINE
  5
AE
330
1F
100
AcDbEntity
  8
0
  6
Continuous
 62
     7
370
    25
100
AcDbLine
 10
318.2654811621
 20
39.27271875
 30
0.0
 11
318.2654811621
 21
118.27271875
 31
0.0
  0
LINE
  5
AF
330
1F
100
AcDbEntity
  8
0
  6
Continuous
 62
     7
370
    25
100
AcDbLine
 10
338.2654811621
 20
118.27271875
 30
0.0
 11
338.2654811621
 21
180.77271875
 31
0.0
  0
LINE
  5
B0
330
1F
100
AcDbEntity
  8
0
  6
Continuous
 62
     7
370
    25
100
AcDbLine
 10
338.2654811621
 20
55.77271875
 30
0.0
 11
338.2654811621
 21
118.27271875
 31
0.0
  0
LINE
  5
B1
330
1F
100
AcDbEntity
  8
0
  6
Continuous
 62
     7
370
    25
100
AcDbLine
 10
458.2654811621
 20
118.27271875
 30
0.0
 11
458.2654811621
 21
180.77271875
 31
0.0
  0
LINE
  5
B2
330
1F
100
AcDbEntity
  8
0
  6
Continuous
 62
     7
370
    25
100
AcDbLine
 10
458.2654811621
 20
55.77271875
 30
0.0
 11
458.2654811621
 21
118.27271875
 31
0.0
  0
LINE
  5
B3
330
1F
100
AcDbEntity
  8
0
  6
Continuous
 62
     7
370
    25
100
AcDbLine
 10
408.3922602131
 20
-39.9648351042
 30
0.0
 11
323.5394464707
 21
9.0196516051
 31
0.0
  0
LINE
  5
B4
330
1F
100
AcDbEntity
  8
0
  6
Continuous
 62
     7
370
    25
100
AcDbLine
 10
261.044525681
 20
-99.2364561925
 30
0.0
 11
345.8973394234
 21
-148.2209429018
 31
0.0
  0
LINE
  5
B5
330
1F
100
AcDbEntity
  8
0
  6
Continuous
 62
     7
370
    25
100
AcDbLine
 10
444.9258610048
 20
-42.0031911114
 30
0.0
 11
430.7837253811
 21
-33.8391099932
 31
0.0
  0
LINE
  5
B6
330
1F
100
AcDbEntity
  8
0
  6
Continuous
 62
     7
370
    25
100
AcDbLine
 10
351.7901455029
 20
-170.6748302493
 30
0.0
 11
365.9322811266
 21
-178.8389113676
 31
0.0
  0
LINE
  5
B7
330
1F
100
AcDbEntity
  8
0
  6
Continuous
 62
     7
370
    25
100
AcDbLine
 10
418.5354363665
 20
-41.2747018957
 30
0.0
 11
405.6077451463
 21
-38.3573687721
 31
0.0
  0
LINE
  5
B8
330
1F
100
AcDbEntity
  8
0
  6
Continuous
 62
     7
370
    25
100
AcDbLine
 10
343.1128243566
 20
-146.6134765696
 30
0.0
 11
352.1040682299
 21
-156.3496753376
 31
0.0
  0
LWPOLYLINE
  5
B9
330
1F
100
AcDbEntity
  8
0
  6
Continuous
 62
     7
370
    25
100
AcDbPolyline
 90
      115
 70
   128
 43
0.0
 10
248.0978122517
 20
-70.6211557881
 10
248.1649203784
 20
-67.7710773058
 10
248.3660409533
 20
-64.8521730244
 10
248.7005631799
 20
-61.8733075601
 10
249.167471125
 20
-58.8435276296
 10
249.7653468048
 20
-55.7720345748
 10
250.4923744903
 20
-52.6681564193
 10
251.3463462223
 20
-49.5413195389
 10
252.3246685169
 20
-46.4010200346
 10
253.4243702413
 20
-43.2567948927
 10
254.6421116375
 20
-40.1181930216
 10
255.974194465
 20
-36.9947462521
 10
257.4165732319
 20
-33.8959403893
 10
258.9648674814
 20
-30.8311864047
 10
260.6143750948
 20
-27.8097918556
 10
262.3600865715
 20
-24.8409326178
 10
264.1967002433
 20
-21.9336250194
 10
266.1186383748
 20
-19.0966984578
 10
268.120064103
 20
-16.3387685858
 10
270.1948991638
 20
-13.6682111459
 10
272.3368423513
 20
-11.0931365332
 10
274.5393886544
 20
-8.6213651646
 10
276.7958490124
 20
-6.2604037285
 10
279.0993706294
 20
-4.0174223873
 10
281.4429577859
 20
-1.8992330015
 10
283.8194930847
 20
0.0877315572
 10
286.2217590663
 20
1.9374369429
 10
288.6424601278
 20
3.6442656611
 10
291.0742446796
 20
5.203034129
 10
293.5097274721
 20
6.6090084181
 10
295.941512024
 20
7.8579186306
 10
298.3622130855
 20
8.9459718673
 10
300.764479067
 20
9.8698637463
 10
303.1410143659
 20
10.6267884382
 10
305.4846015224
 20
11.2144471878
 10
307.7881231393
 20
11.6310552946
 10
310.0445834973
 20
11.8753475335
 10
312.2471298005
 20
11.9465819971
 10
314.3890729879
 20
11.8445423485
 10
316.4639080487
 20
11.569538479
 10
318.4653337769
 20
11.1224055661
 10
320.3872719084
 20
10.5045015379
 10
322.2238855802
 20
9.7177029486
 10
323.9695970569
 20
8.7643992796
 10
325.6191046703
 20
7.6474856828
 10
327.1673989198
 20
6.3703541882
 10
328.6097776868
 20
4.936883402
 10
329.9418605142
 20
3.3514267281
 10
331.1596019105
 20
1.618799146
 10
332.2593036349
 20
-0.255737411
 10
333.2376259294
 20
-2.2664900371
 10
334.0915976615
 20
-4.4073521427
 10
334.818625347
 20
-6.6718219998
 10
335.4165010267
 20
-9.0530224881
 10
335.8834089719
 20
-11.5437219797
 10
336.2179311984
 20
-14.1363563024
 10
336.4190517733
 20
-16.8230517108
 10
336.4861599
 20
-19.5956487992
 10
336.4190517733
 20
-22.4457272815
 10
336.2179311984
 20
-25.364631563
 10
335.8834089719
 20
-28.3434970272
 10
335.4165010267
 20
-31.3732769578
 10
334.818625347
 20
-34.4447700125
 10
334.0915976615
 20
-37.5486481681
 10
333.2376259294
 20
-40.6754850484
 10
332.2593036349
 20
-43.8157845527
 10
331.1596019105
 20
-46.9600096946
 10
329.9418605142
 20
-50.0986115657
 10
328.6097776868
 20
-53.2220583353
 10
327.1673989198
 20
-56.3208641981
 10
325.6191046703
 20
-59.3856181826
 10
323.9695970569
 20
-62.4070127317
 10
322.2238855802
 20
-65.3758719695
 10
320.3872719084
 20
-68.283179568
 10
318.4653337769
 20
-71.1201061296
 10
316.4639080487
 20
-73.8780360015
 10
314.3890729879
 20
-76.5485934414
 10
312.2471298005
 20
-79.1236680542
 10
310.0445834973
 20
-81.5954394228
 10
307.7881231393
 20
-83.9564008588
 10
305.4846015224
 20
-86.1993822
 10
303.1410143659
 20
-88.3175715858
 10
300.764479067
 20
-90.3045361446
 10
298.3622130855
 20
-92.1542415303
 10
295.9415120239
 20
-93.8610702484
 10
293.5097274721
 20
-95.4198387164
 10
291.0742446796
 20
-96.8258130054
 10
288.6424601278
 20
-98.074723218
 10
286.2217590663
 20
-99.1627764547
 10
283.8194930847
 20
-100.0866683336
 10
281.4429577859
 20
-100.8435930256
 10
279.0993706294
 20
-101.4312517751
 10
276.7958490124
 20
-101.8478598819
 10
274.5393886544
 20
-102.0921521208
 10
272.3368423513
 20
-102.1633865844
 10
270.1948991638
 20
-102.0613469359
 10
268.120064103
 20
-101.7863430663
 10
266.1186383748
 20
-101.3392101535
 10
264.1967002433
 20
-100.7213061253
 10
262.3600865715
 20
-99.9345075359
 10
260.6143750948
 20
-98.9812038669
 10
258.9648674814
 20
-97.8642902702
 10
257.4165732319
 20
-96.5871587755
 10
255.974194465
 20
-95.1536879894
 10
254.6421116375
 20
-93.5682313154
 10
253.4243702413
 20
-91.8356037334
 10
252.3246685169
 20
-89.9610671764
 10
251.3463462223
 20
-87.9503145503
 10
250.4923744903
 20
-85.8094524447
 10
249.7653468048
 20
-83.5449825875
 10
249.167471125
 20
-81.1637820993
 10
248.7005631799
 20
-78.6730826076
 10
248.3660409533
 20
-76.080448285
 10
248.1649203784
 20
-73.3937528766
 10
248.0978122517
 20
-70.6211557881
  0
LWPOLYLINE
  5
BA
330
1F
100
AcDbEntity
  8
0
  6
Continuous
 62
     7
370
    25
100
AcDbPolyline
 90
      108
 70
   128
 43
0.0
 10
253.3304024325
 20
-67.6004457744
 10
253.3975567576
 20
-64.9212404446
 10
253.5987882379
 20
-62.1737361573
 10
253.933403187
 20
-59.3674041289
 10
254.4002481177
 20
-56.5119183672
 10
254.9977137188
 20
-53.6171223232
 10
255.7237404027
 20
-50.6929949587
 10
256.575825405
 20
-47.7496163463
 10
257.5510314121
 20
-44.7971329219
 10
258.6459966869
 20
-41.8457225075
 10
259.8569466573
 20
-38.9055592262
 10
261.1797069279
 20
-35.98677843
 10
262.6097176699
 20
-33.0994417609
 10
264.1420493402
 20
-30.2535024665
 10
265.771419674
 20
-27.4587710892
 10
267.4922118942
 20
-24.724881647
 10
269.2984940736
 20
-22.0612584231
 10
271.1840395832
 20
-19.4770834787
 10
273.1423485572
 20
-16.981265
 10
275.1666702988
 20
-14.5824065904
 10
277.2500265516
 20
-12.2887776119
 10
279.3852355549
 20
-10.1082846785
 10
281.5649368011
 20
-8.0484444013
 10
283.7816164084
 20
-6.1163574763
 10
286.0276330229
 20
-4.3186842075
 10
288.2952441602
 20
-2.6616215469
 10
290.5766328948
 20
-1.1508817329
 10
292.8639348071
 20
0.2083274014
 10
295.1492650937
 20
1.4113203805
 10
297.4247457476
 20
2.4539502385
 10
299.6825327157
 20
3.3326228143
 10
301.9148429384
 20
4.0443091413
 10
304.11398118
 20
4.5865558896
 10
306.2723665554
 20
4.957493822
 10
308.3825586631
 20
5.1558442389
 10
310.4372832338
 20
5.1809233851
 10
312.4294572062
 20
5.0326448077
 10
314.3522131438
 20
4.7115196536
 10
316.1989229087
 20
4.2186549079
 10
317.9632205098
 20
3.5557495772
 10
319.6390240477
 20
2.7250888338
 10
321.2205566805
 20
1.7295361372
 10
322.7023665374
 20
0.5725233638
 10
324.0793455131
 20
-0.7419610237
 10
325.3467468757
 20
-2.2093857253
 10
326.5002016301
 20
-3.824692224
 10
327.5357335789
 20
-5.5823122237
 10
328.4497730289
 20
-7.4761868441
 10
329.2391690968
 20
-9.4997875072
 10
329.9012005707
 20
-11.6461384421
 10
330.4335852911
 20
-13.9078407327
 10
330.8344880176
 20
-16.2770978225
 10
331.1025267553
 20
-18.7457423915
 10
331.2367775193
 20
-21.3052645106
 10
331.2367775193
 20
-23.9468409767
 10
331.1025267553
 20
-26.6613657285
 10
330.8344880176
 20
-29.4394812369
 10
330.4335852911
 20
-32.2716107621
 10
329.9012005707
 20
-35.147991367
 10
329.2391690968
 20
-38.0587075719
 10
328.4497730289
 20
-40.9937255348
 10
327.5357335789
 20
-43.942927641
 10
326.5002016301
 20
-46.8961473797
 10
325.3467468757
 20
-49.8432043907
 10
324.0793455131
 20
-52.7739395581
 10
322.7023665374
 20
-55.6782500305
 10
321.2205566805
 20
-58.5461240481
 10
319.6390240477
 20
-61.367675455
 10
317.9632205098
 20
-64.133177779
 10
316.1989229087
 20
-66.8330977607
 10
314.3522131438
 20
-69.4581282167
 10
312.4294572062
 20
-71.999220123
 10
310.4372832338
 20
-74.4476138096
 10
308.3825586631
 20
-76.7948691561
 10
306.2723665554
 20
-79.0328946871
 10
304.11398118
 20
-81.153975465
 10
301.9148429384
 20
-83.1507996849
 10
299.6825327156
 20
-85.0164838801
 10
297.4247457476
 20
-86.7445966507
 10
295.1492650937
 20
-88.3291808338
 10
292.8639348071
 20
-89.7647740397
 10
290.5766328948
 20
-91.0464274811
 10
288.2952441602
 20
-92.1697230331
 10
286.0276330229
 20
-93.1307884631
 10
283.7816164084
 20
-93.9263107797
 10
281.5649368011
 20
-94.5535476525
 10
279.3852355549
 20
-95.0103368662
 10
277.2500265516
 20
-95.2951037736
 10
275.1666702988
 20
-95.4068667243
 10
273.1423485572
 20
-95.3452404482
 10
271.1840395832
 20
-95.1104373838
 10
269.2984940736
 20
-94.7032669459
 10
267.4922118942
 20
-94.1251327355
 10
265.771419674
 20
-93.3780277008
 10
264.1420493402
 20
-92.4645272678
 10
262.6097176699
 20
-91.3877804616
 10
261.1797069279
 20
-90.1514990516
 10
259.8569466573
 20
-88.7599447558
 10
258.6459966869
 20
-87.2179145503
 10
257.5510314121
 20
-85.5307241325
 10
256.575825405
 20
-83.7041895974
 10
255.7237404027
 20
-81.7446073879
 10
254.9977137188
 20
-79.6587325899
 10
254.4002481177
 20
-77.4537556458
 10
253.933403187
 20
-75.137277568
 10
253.5987882379
 20
-72.7172837363
 10
253.3975567576
 20
-70.2021163708
 10
253.3304024325
 20
-67.6004457744
  0
LWPOLYLINE
  5
BB
330
1F
100
AcDbEntity
  8
0
  6
Continuous
 62
     7
370
    25
100
AcDbPolyline
 90
       59
 70
   128
 43
0.0
 10
408.3922602131
 20
-39.9648351042
 10
408.8224107993
 20
-40.2200874298
 10
410.4719184127
 20
-41.3370010265
 10
412.0202126622
 20
-42.6141325212
 10
413.4625914291
 20
-44.0476033073
 10
414.7946742566
 20
-45.6330599813
 10
416.0124156529
 20
-47.3656875633
 10
417.1121173772
 20
-49.2402241203
 10
418.0904396718
 20
-51.2509767464
 10
418.9444114039
 20
-53.391838852
 10
419.6714390893
 20
-55.6563087092
 10
420.2693147691
 20
-58.0375091974
 10
420.7362227143
 20
-60.5282086891
 10
421.0707449408
 20
-63.1208430118
 10
421.2718655157
 20
-65.8075384201
 10
421.3389736424
 20
-68.5801355086
 10
421.2718655157
 20
-71.4302139909
 10
421.0707449408
 20
-74.3491182723
 10
420.7362227143
 20
-77.3279837366
 10
420.2693147691
 20
-80.3577636671
 10
419.6714390893
 20
-83.4292567219
 10
418.9444114039
 20
-86.5331348774
 10
418.0904396718
 20
-89.6599717578
 10
417.1121173772
 20
-92.8002712621
 10
416.0124156529
 20
-95.944496404
 10
414.7946742566
 20
-99.0830982751
 10
413.4625914291
 20
-102.2065450446
 10
412.0202126622
 20
-105.3053509074
 10
410.4719184127
 20
-108.370104892
 10
408.8224107993
 20
-111.3914994411
 10
407.0766993226
 20
-114.3603586789
 10
405.2400856508
 20
-117.2676662773
 10
403.3181475193
 20
-120.1045928389
 10
401.3167217911
 20
-122.8625227109
 10
399.2418867303
 20
-125.5330801508
 10
397.0999435428
 20
-128.1081547635
 10
394.8973972397
 20
-130.5799261322
 10
392.6409368817
 20
-132.9408875682
 10
390.3374152647
 20
-135.1838689094
 10
387.9938281083
 20
-137.3020582952
 10
385.6172928094
 20
-139.2890228539
 10
383.2150268278
 20
-141.1387282396
 10
380.7943257663
 20
-142.8455569578
 10
378.3625412145
 20
-144.4043254257
 10
375.927058422
 20
-145.8102997148
 10
373.4952738702
 20
-147.0592099273
 10
371.0745728087
 20
-148.147263164
 10
368.6723068271
 20
-149.071155043
 10
366.2957715282
 20
-149.8280797349
 10
363.9521843718
 20
-150.4157384845
 10
361.6486627548
 20
-150.8323465913
 10
359.3922023968
 20
-151.0766388302
 10
357.1896560936
 20
-151.1478732938
 10
355.0477129062
 20
-151.0458336453
 10
352.9728778454
 20
-150.7708297757
 10
350.9714521172
 20
-150.3236968629
 10
349.0495139857
 20
-149.7057928346
 10
347.2129003139
 20
-148.9189942453
 10
345.8973394234
 20
-148.2209429018
  0
LWPOLYLINE
  5
BC
330
1F
100
AcDbEntity
  8
0
  6
Continuous
 62
     7
370
    25
100
AcDbPolyline
 90
       66
 70
   128
 43
0.0
 10
444.9258610048
 20
-42.0031911114
 10
444.9290710657
 20
-42.0050445413
 10
446.8196647217
 20
-43.2067018826
 10
448.6105448123
 20
-44.5702844787
 10
450.2973969503
 20
-46.0925073398
 10
451.8761573613
 20
-47.7697032977
 10
453.3430226731
 20
-49.5978318403
 10
454.6944590787
 20
-51.572488846
 10
455.9272108494
 20
-53.688917193
 10
457.0383081783
 20
-55.9420182201
 10
458.0250743346
 20
-58.3263640096
 10
458.8851321121
 20
-60.8362104635
 10
459.6164095564
 20
-63.465511142
 10
460.2171449559
 20
-66.2079318293
 10
460.6858910866
 20
-69.056865794
 10
461.021518698
 20
-72.0054497045
 10
461.2232192337
 20
-75.0465801639
 10
461.2905067794
 20
-78.1729308225
 10
461.2232192337
 20
-81.3769700278
 10
461.021518698
 20
-84.6509789687
 10
460.6858910866
 20
-87.987070271
 10
460.2171449559
 20
-91.3772069983
 10
459.6164095564
 20
-94.8132220145
 10
458.8851321121
 20
-98.2868376583
 10
458.0250743346
 20
-101.7896856855
 10
457.0383081783
 20
-105.3133274284
 10
455.9272108494
 20
-108.8492741253
 10
454.6944590787
 20
-112.3890073709
 10
453.3430226731
 20
-115.9239996379
 10
451.8761573613
 20
-119.4457348201
 10
450.2973969503
 20
-122.9457287491
 10
448.6105448123
 20
-126.415549633
 10
446.8196647217
 20
-129.8468383693
 10
444.9290710657
 20
-133.2313286829
 10
442.9433184499
 20
-136.5608670402
 10
440.8671907262
 20
-139.8274322917
 10
438.7056894683
 20
-143.0231549955
 10
436.464021922
 20
-146.1403363757
 10
434.1475884607
 20
-149.1714668694
 10
431.7619695756
 20
-152.1092442178
 10
429.3129124314
 20
-154.9465910577
 10
426.8063170215
 20
-157.6766719723
 10
424.2482219536
 20
-160.2929099575
 10
421.6447899028
 20
-162.7890022667
 10
419.0022927651
 20
-165.158935595
 10
416.3270965474
 20
-167.3970005655
 10
413.6256460317
 20
-169.4978054835
 10
410.9044492491
 20
-171.456289326
 10
408.1700618008
 20
-173.2677339339
 10
405.4290710657
 20
-174.9277753785
 10
402.6880803306
 20
-176.4324144745
 10
399.9536928823
 20
-177.7780264145
 10
397.2324960997
 20
-178.9613695016
 10
394.531045584
 20
-179.9795929586
 10
391.8558493663
 20
-180.830243796
 10
389.2133522286
 20
-181.5112727213
 10
386.6099201778
 20
-182.0210390764
 10
384.0518251099
 20
-182.3583147893
 10
381.5452297
 20
-182.5222873334
 10
379.0961725558
 20
-182.5125616844
 10
376.7105536707
 20
-182.3291612723
 10
374.3941202094
 20
-181.9725279247
 10
372.1524526631
 20
-181.4435208027
 10
369.9909514052
 20
-180.7434143305
 10
367.9148236815
 20
-179.8738951262
 10
365.9322811266
 20
-178.8389113676
  0
LWPOLYLINE
  5
BD
330
1F
100
AcDbEntity
  8
0
  6
Continuous
 62
     7
370
    25
100
AcDbPolyline
 90
       93
 70
   128
 43
0.0
 10
398.3728071963
 20
-34.1807279958
 10
399.483510408
 20
-33.7166518591
 10
402.1849609237
 20
-32.6984284022
 10
404.8601571414
 20
-31.8477775648
 10
407.5026542791
 20
-31.1667486394
 10
410.1060863299
 20
-30.6569822844
 10
412.6641813978
 20
-30.3197065714
 10
415.1707768077
 20
-30.1557340273
 10
417.6198339518
 20
-30.1654596763
 10
420.005452837
 20
-30.3488600884
 10
422.3218862983
 20
-30.705493436
 10
424.5635538446
 20
-31.2345005581
 10
426.7250551025
 20
-31.9346070302
 10
428.8011828261
 20
-32.8041262345
 10
430.786935442
 20
-33.8409634231
 10
432.677529098
 20
-35.0426207643
 10
434.4684091885
 20
-36.4062033605
 10
436.1552613266
 20
-37.9284262216
 10
437.7340217375
 20
-39.6056221794
 10
439.2008870493
 20
-41.4337507221
 10
440.552323455
 20
-43.4084077278
 10
441.7850752257
 20
-45.5248360748
 10
442.8961725546
 20
-47.7779371019
 10
443.8829387108
 20
-50.1622828913
 10
444.7429964884
 20
-52.6721293453
 10
445.4742739326
 20
-55.3014300237
 10
446.0750093322
 20
-58.0438507111
 10
446.5437554629
 20
-60.8927846758
 10
446.8793830743
 20
-63.8413685863
 10
447.08108361
 20
-66.8824990456
 10
447.1483711557
 20
-70.0088497043
 10
447.08108361
 20
-73.2128889096
 10
446.8793830743
 20
-76.4868978505
 10
446.5437554629
 20
-79.8229891527
 10
446.0750093322
 20
-83.2131258801
 10
445.4742739326
 20
-86.6491408963
 10
444.7429964884
 20
-90.1227565401
 10
443.8829387108
 20
-93.6256045673
 10
442.8961725546
 20
-97.1492463102
 10
441.7850752257
 20
-100.6851930071
 10
440.552323455
 20
-104.2249262527
 10
439.2008870493
 20
-107.7599185196
 10
437.7340217375
 20
-111.2816537019
 10
436.1552613266
 20
-114.7816476309
 10
434.4684091885
 20
-118.2514685148
 10
432.677529098
 20
-121.6827572511
 10
430.786935442
 20
-125.0672475647
 10
428.8011828261
 20
-128.396785922
 10
426.7250551025
 20
-131.6633511734
 10
424.5635538446
 20
-134.8590738772
 10
422.3218862983
 20
-137.9762552575
 10
420.005452837
 20
-141.0073857512
 10
417.6198339518
 20
-143.9451630995
 10
415.1707768077
 20
-146.7825099395
 10
412.6641813978
 20
-149.5125908541
 10
410.1060863299
 20
-152.1288288393
 10
407.5026542791
 20
-154.6249211485
 10
404.8601571414
 20
-156.9948544768
 10
402.1849609237
 20
-159.2329194472
 10
399.483510408
 20
-161.3337243652
 10
396.7623136253
 20
-163.2922082077
 10
394.027926177
 20
-165.1036528157
 10
391.286935442
 20
-166.7636942602
 10
388.5459447069
 20
-168.2683333562
 10
385.8115572586
 20
-169.6139452963
 10
383.0903604759
 20
-170.7972883834
 10
380.3889099603
 20
-171.8155118404
 10
377.7137137426
 20
-172.6661626777
 10
375.0712166048
 20
-173.3471916031
 10
372.4677845541
 20
-173.8569579582
 10
369.9096894862
 20
-174.1942336711
 10
367.4030940762
 20
-174.3582062152
 10
364.9540369321
 20
-174.3484805662
 10
362.568418047
 20
-174.1650801541
 10
360.2519845857
 20
-173.8084468065
 10
358.0103170394
 20
-173.2794396844
 10
355.8488157814
 20
-172.5793332123
 10
353.7726880578
 20
-171.709814008
 10
351.786935442
 20
-170.6729768194
 10
349.8963417859
 20
-169.4713194782
 10
348.1054616954
 20
-168.1077368821
 10
346.4186095574
 20
-166.585514021
 10
344.8398491464
 20
-164.9083180631
 10
343.3729838346
 20
-163.0801895204
 10
342.021547429
 20
-161.1055325147
 10
340.7887956583
 20
-158.9891041677
 10
339.6776983294
 20
-156.7360031406
 10
338.6909321731
 20
-154.3516573512
 10
337.8308743956
 20
-151.8418108973
 10
337.0995969513
 20
-149.2125102188
 10
336.4988615518
 20
-146.4700895314
 10
336.030115421
 20
-143.6211555667
 10
335.8778864066
 20
-142.4368357934
  0
LWPOLYLINE
  5
BE
330
1F
100
AcDbEntity
  8
0
  6
Continuous
 62
     7
370
    25
100
AcDbPolyline
 90
       68
 70
   128
 43
0.0
 10
418.5354363665
 20
-41.2747018957
 10
420.0505105044
 20
-41.6681913424
 10
422.0205928891
 20
-42.3451217424
 10
423.9050150582
 20
-43.1890372095
 10
425.6985247891
 20
-44.1975855999
 10
427.3961232486
 20
-45.3679559083
 10
428.9930789252
 20
-46.6968861027
 10
430.484940817
 20
-48.1806722164
 10
431.8675508375
 20
-49.8151786713
 10
433.1370554044
 20
-51.5958498047
 10
434.2899161809
 20
-53.5177225669
 10
435.3229199371
 20
-55.5754403538
 10
436.2331875065
 20
-57.7632679368
 10
437.0181818099
 20
-60.075107448
 10
437.6757149274
 20
-62.5045153761
 10
438.2039541964
 20
-65.0447205255
 10
438.6014273193
 20
-67.6886428887
 10
438.867026467
 20
-70.4289133801
 10
439.0000113673
 20
-73.2578943741
 10
439.0000113673
 20
-76.1677009934
 10
438.867026467
 20
-79.1502230851
 10
438.6014273193
 20
-82.1971478251
 10
438.2039541964
 20
-85.2999828878
 10
437.6757149274
 20
-88.4500801152
 10
437.0181818099
 20
-91.6386596214
 10
436.2331875065
 20
-94.8568342635
 10
435.3229199371
 20
-98.0956344114
 10
434.2899161809
 20
-101.3460329484
 10
433.1370554044
 20
-104.5989704306
 10
431.8675508375
 20
-107.8453803379
 10
430.484940817
 20
-111.0762143436
 10
428.9930789252
 20
-114.2824675339
 10
427.3961232486
 20
-117.455203506
 10
425.6985247891
 20
-120.5855792758
 10
423.9050150582
 20
-123.6648699245
 10
422.0205928891
 20
-126.6844929168
 10
420.0505105044
 20
-129.6360320218
 10
418.0002588771
 20
-132.5112607707
 10
415.8755524261
 20
-135.3021653852
 10
413.6823130894
 20
-138.0009671136
 10
411.4266538185
 20
-140.6001439115
 10
409.1148615403
 20
-143.0924514069
 10
406.7533796345
 20
-145.4709430918
 10
404.3487899747
 20
-147.7289896834
 10
401.9077945835
 20
-149.8602976007
 10
399.4371969531
 20
-151.8589265063
 10
396.943883082
 20
-153.7193058631
 10
394.4348022832
 20
-155.43625046
 10
391.9169478149
 20
-157.0049748645
 10
389.3973373891
 20
-158.4211067604
 10
386.8829936121
 20
-159.680699134
 10
384.3809244107
 20
-160.7802412755
 10
381.8981035008
 20
-161.7166685638
 10
379.4414509495
 20
-162.487371008
 10
377.017813888
 20
-163.0902005221
 10
374.6339474275
 20
-163.5234769123
 10
372.2964958315
 20
-163.7859925595
 10
370.0119739967
 20
-163.8770157855
 10
367.7867492953
 20
-163.7962928923
 10
365.6270238275
 20
-163.544048869
 10
363.5388171358
 20
-163.1209867649
 10
361.5279494266
 20
-162.5282857301
 10
359.6000253489
 20
-161.7675977286
 10
357.7604183728
 20
-160.8410429343
 10
356.0142558131
 20
-159.7512038217
 10
354.3664045379
 20
-158.5011179677
 10
352.8214574043
 20
-157.0942695859
 10
352.1040682299
 20
-156.3496753376
  0
ENDSEC
  0
SECTION
  2
OBJECTS
  0
DICTIONARY
  5
C
330
0
100
AcDbDictionary
281
     1
  3
ACAD_GROUP
350
D
  3
ACAD_LAYOUT
350
1A
  3
ACAD_MLINESTYLE
350
17
  3
ACAD_PLOTSETTINGS
350
19
  3
ACAD_PLOTSTYLENAME
350
E
  3
ACAD_SCALELIST
350
47
  0
DICTIONARY
  5
D
102
{ACAD_REACTORS
330
C
102
}
330
C
100
AcDbDictionary
281
     1
  0
DICTIONARY
  5
1A
102
{ACAD_REACTORS
330
C
102
}
330
C
100
AcDbDictionary
281
     1
  3
Layout1
350
1E
  3
Layout2
350
26
  3
Model
350
22
  0
DICTIONARY
  5
17
102
{ACAD_REACTORS
330
C
102
}
330
C
100
AcDbDictionary
281
     1
  3
Standard
350
18
  0
DICTIONARY
  5
19
102
{ACAD_REACTORS
330
C
102
}
330
C
100
AcDbDictionary
281
     1
  0
ACDBDICTIONARYWDFLT
  5
E
102
{ACAD_REACTORS
330
C
102
}
330
C
100
AcDbDictionary
281
     1
  3
Normal
350
F
100
AcDbDictionaryWithDefault
340
F
  0
DICTIONARY
  5
47
102
{ACAD_REACTORS
330
C
102
}
330
C
100
AcDbDictionary
281
     1
  3
A0
350
48
  3
A1
350
49
  3
A2
350
4A
  3
A3
350
4B
  3
A4
350
4C
  3
A5
350
4D
  3
A6
350
4E
  3
A7
350
4F
  3
A8
350
50
  3
A9
350
51
  3
B0
350
52
  3
B1
350
53
  3
B2
350
54
  3
B3
350
55
  3
B4
350
56
  3
B5
350
57
  3
B6
350
58
  3
B7
350
59
  3
B8
350
5A
  3
B9
350
5B
  3
C0
350
5C
  3
C1
350
5D
  3
C2
350
5E
  3
C3
350
5F
  3
C4
350
60
  3
C5
350
61
  3
C6
350
62
  3
C7
350
63
  3
C8
350
64
  3
C9
350
65
  3
D0
350
66
  3
D1
350
67
  3
D2
350
68
  0
LAYOUT
  5
1E
102
{ACAD_REACTORS
330
1A
102
}
330
1A
100
AcDbPlotSettings
  1

  2
none_device
  4

  6

 40
0.0
 41
0.0
 42
0.0
 43
0.0
 44
0.0
 45
0.0
 46
0.0
 47
0.0
 48
0.0
 49
0.0
140
0.0
141
0.0
142
1.0
143
1.0
 70
   688
 72
     1
 73
     0
 74
     5
  7

 75
    16
147
1.0
148
0.0
149
0.0
100
AcDbLayout
  1
Layout1
 70
     1
 71
     1
 10
0.0
 20
0.0
 11
420.0
 21
297.0
 12
0.0
 22
0.0
 32
0.0
 14
1.0000000000E+20
 24
1.0000000000E+20
 34
1.0000000000E+20
 15
-1.0000000000E+20
 25
-1.0000000000E+20
 35
-1.0000000000E+20
146
0.0
 13
0.0
 23
0.0
 33
0.0
 16
1.0
 26
0.0
 36
0.0
 17
0.0
 27
1.0
 37
0.0
 76
     0
330
1B
  0
LAYOUT
  5
26
102
{ACAD_REACTORS
330
1A
102
}
330
1A
100
AcDbPlotSettings
  1

  2
none_device
  4

  6

 40
0.0
 41
0.0
 42
0.0
 43
0.0
 44
0.0
 45
0.0
 46
0.0
 47
0.0
 48
0.0
 49
0.0
140
0.0
141
0.0
142
1.0
143
1.0
 70
   688
 72
     1
 73
     0
 74
     5
  7

 75
    16
147
1.0
148
0.0
149
0.0
100
AcDbLayout
  1
Layout2
 70
     1
 71
     2
 10
0.0
 20
0.0
 11
0.0
 21
0.0
 12
0.0
 22
0.0
 32
0.0
 14
0.0
 24
0.0
 34
0.0
 15
0.0
 25
0.0
 35
0.0
146
0.0
 13
0.0
 23
0.0
 33
0.0
 16
1.0
 26
0.0
 36
0.0
 17
0.0
 27
1.0
 37
0.0
 76
     0
330
23
  0
LAYOUT
  5
22
102
{ACAD_REACTORS
330
1A
102
}
330
1A
100
AcDbPlotSettings
  1

  2
none_device
  4
Letter_(8.50_x_11.00_Inches)
  6

 40
6.35
 41
6.35
 42
6.35000508
 43
6.35000508
 44
215.9
 45
279.4
 46
0.0
 47
0.0
 48
0.0
 49
0.0
140
0.0
141
0.0
142
1.0
143
1.0
 70
  1712
 72
     1
 73
     0
 74
     0
  7

 75
     0
147
1.0
148
0.0
149
0.0
100
AcDbLayout
  1
Model
 70
     1
 71
     0
 10
0.0
 20
0.0
 11
279.4
 21
215.9
 12
0.0
 22
0.0
 32
0.0
 14
0.0
 24
0.0
 34
0.0
 15
279.4
 25
215.9
 35
0.0
146
0.0
 13
0.0
 23
0.0
 33
0.0
 16
1.0
 26
0.0
 36
0.0
 17
0.0
 27
1.0
 37
0.0
 76
     0
330
1F
331
29
  0
MLINESTYLE
  5
18
102
{ACAD_REACTORS
330
17
102
}
330
17
100
AcDbMlineStyle
  2
Standard
 70
     0
  3

 62
   256
 51
90.0
 52
90.0
 71
     2
 49
0.5
 62
   256
  6
BYLAYER
 49
-0.5
 62
   256
  6
BYLAYER
  0
ACDBPLACEHOLDER
  5
F
102
{ACAD_REACTORS
330
E
102
}
330
E
  0
SCALE
  5
48
102
{ACAD_REACTORS
330
47
102
}
330
47
100
AcDbScale
 70
     0
300
1:1
140
1.0
141
1.0
290
     1
  0
SCALE
  5
49
102
{ACAD_REACTORS
330
47
102
}
330
47
100
AcDbScale
 70
     0
300
1:2
140
1.0
141
2.0
290
     0
  0
SCALE
  5
4A
102
{ACAD_REACTORS
330
47
102
}
330
47
100
AcDbScale
 70
     0
300
1:4
140
1.0
141
4.0
290
     0
  0
SCALE
  5
4B
102
{ACAD_REACTORS
330
47
102
}
330
47
100
AcDbScale
 70
     0
300
1:5
140
1.0
141
5.0
290
     0
  0
SCALE
  5
4C
102
{ACAD_REACTORS
330
47
102
}
330
47
100
AcDbScale
 70
     0
300
1:8
140
1.0
141
8.0
290
     0
  0
SCALE
  5
4D
102
{ACAD_REACTORS
330
47
102
}
330
47
100
AcDbScale
 70
     0
300
1:10
140
1.0
141
10.0
290
     0
  0
SCALE
  5
4E
102
{ACAD_REACTORS
330
47
102
}
330
47
100
AcDbScale
 70
     0
300
1:16
140
1.0
141
16.0
290
     0
  0
SCALE
  5
4F
102
{ACAD_REACTORS
330
47
102
}
330
47
100
AcDbScale
 70
     0
300
1:20
140
1.0
141
20.0
290
     0
  0
SCALE
  5
50
102
{ACAD_REACTORS
330
47
102
}
330
47
100
AcDbScale
 70
     0
300
1:30
140
1.0
141
30.0
290
     0
  0
SCALE
  5
51
102
{ACAD_REACTORS
330
47
102
}
330
47
100
AcDbScale
 70
     0
300
1:40
140
1.0
141
40.0
290
     0
  0
SCALE
  5
52
102
{ACAD_REACTORS
330
47
102
}
330
47
100
AcDbScale
 70
     0
300
1:50
140
1.0
141
50.0
290
     0
  0
SCALE
  5
53
102
{ACAD_REACTORS
330
47
102
}
330
47
100
AcDbScale
 70
     0
300
1:100
140
1.0
141
100.0
290
     0
  0
SCALE
  5
54
102
{ACAD_REACTORS
330
47
102
}
330
47
100
AcDbScale
 70
     0
300
2:1
140
2.0
141
1.0
290
     0
  0
SCALE
  5
55
102
{ACAD_REACTORS
330
47
102
}
330
47
100
AcDbScale
 70
     0
300
4:1
140
4.0
141
1.0
290
     0
  0
SCALE
  5
56
102
{ACAD_REACTORS
330
47
102
}
330
47
100
AcDbScale
 70
     0
300
8:1
140
8.0
141
1.0
290
     0
  0
SCALE
  5
57
102
{ACAD_REACTORS
330
47
102
}
330
47
100
AcDbScale
 70
     0
300
10:1
140
10.0
141
1.0
290
     0
  0
SCALE
  5
58
102
{ACAD_REACTORS
330
47
102
}
330
47
100
AcDbScale
 70
     0
300
100:1
140
100.0
141
1.0
290
     0
  0
SCALE
  5
59
102
{ACAD_REACTORS
330
47
102
}
330
47
100
AcDbScale
 70
     0
300
1/128" = 1'-0"
140
0.0078125
141
12.0
290
     0
  0
SCALE
  5
5A
102
{ACAD_REACTORS
330
47
102
}
330
47
100
AcDbScale
 70
     0
300
1/64" = 1'-0"
140
0.015625
141
12.0
290
     0
  0
SCALE
  5
5B
102
{ACAD_REACTORS
330
47
102
}
330
47
100
AcDbScale
 70
     0
300
1/32" = 1'-0"
140
0.03125
141
12.0
290
     0
  0
SCALE
  5
5C
102
{ACAD_REACTORS
330
47
102
}
330
47
100
AcDbScale
 70
     0
300
1/16" = 1'-0"
140
0.0625
141
12.0
290
     0
  0
SCALE
  5
5D
102
{ACAD_REACTORS
330
47
102
}
330
47
100
AcDbScale
 70
     0
300
3/32" = 1'-0"
140
0.09375
141
12.0
290
     0
  0
SCALE
  5
5E
102
{ACAD_REACTORS
330
47
102
}
330
47
100
AcDbScale
 70
     0
300
1/8" = 1'-0"
140
0.125
141
12.0
290
     0
  0
SCALE
  5
5F
102
{ACAD_REACTORS
330
47
102
}
330
47
100
AcDbScale
 70
     0
300
3/16" = 1'-0"
140
0.1875
141
12.0
290
     0
  0
SCALE
  5
60
102
{ACAD_REACTORS
330
47
102
}
330
47
100
AcDbScale
 70
     0
300
1/4" = 1'-0"
140
0.25
141
12.0
290
     0
  0
SCALE
  5
61
102
{ACAD_REACTORS
330
47
102
}
330
47
100
AcDbScale
 70
     0
300
3/8" = 1'-0"
140
0.375
141
12.0
290
     0
  0
SCALE
  5
62
102
{ACAD_REACTORS
330
47
102
}
330
47
100
AcDbScale
 70
     0
300
1/2" = 1'-0"
140
0.5
141
12.0
290
     0
  0
SCALE
  5
63
102
{ACAD_REACTORS
330
47
102
}
330
47
100
AcDbScale
 70
     0
300
3/4" = 1'-0"
140
0.75
141
12.0
290
     0
  0
SCALE
  5
64
102
{ACAD_REACTORS
330
47
102
}
330
47
100
AcDbScale
 70
     0
300
1" = 1'-0"
140
1.0
141
12.0
290
     0
  0
SCALE
  5
65
102
{ACAD_REACTORS
330
47
102
}
330
47
100
AcDbScale
 70
     0
300
1-1/2" = 1'-0"
140
1.5
141
12.0
290
     0
  0
SCALE
  5
66
102
{ACAD_REACTORS
330
47
102
}
330
47
100
AcDbScale
 70
     0
300
3" = 1'-0"
140
3.0
141
12.0
290
     0
  0
SCALE
  5
67
102
{ACAD_REACTORS
330
47
102
}
330
47
100
AcDbScale
 70
     0
300
6" = 1'-0"
140
6.0
141
12.0
290
     0
  0
SCALE
  5
68
102
{ACAD_REACTORS
330
47
102
}
330
47
100
AcDbScale
 70
     0
300
1'-0" = 1'-0"
140
12.0
141
12.0
290
     0
  0
ENDSEC
  0
EOF
